  0
SECTION
  2
HEADER
  9
$ACADVER
  1
AC1015
  9
$ACADMAINTVER
 70
     6
  9
$DWGCODEPAGE
  3
ANSI_1254
  9
$INSBASE
 10
0.0
 20
0.0
 30
0.0
  9
$EXTMIN
 10
0.0
 20
0.0
 30
0.0
  9
$EXTMAX
 10
279.4
 20
215.9
 30
0.0
  9
$LIMMIN
 10
0.0
 20
0.0
  9
$LIMMAX
 10
279.4
 20
215.9
  9
$ORTHOMODE
 70
     0
  9
$REGENMODE
 70
     1
  9
$FILLMODE
 70
     1
  9
$QTEXTMODE
 70
     0
  9
$MIRRTEXT
 70
     1
  9
$LTSCALE
 40
1.0
  9
$ATTMODE
 70
     1
  9
$TEXTSIZE
 40
3.5
  9
$TRACEWID
 40
1.0
  9
$TEXTSTYLE
  7
Standard
  9
$CLAYER
  8
0
  9
$CELTYPE
  6
ByLayer
  9
$CECOLOR
 62
   256
  9
$CELTSCALE
 40
1.0
  9
$DISPSILH
 70
     0
  9
$DIMSCALE
 40
1.0
  9
$DIMASZ
 40
3.5
  9
$DIMEXO
 40
1.0
  9
$DIMDLI
 40
3.75
  9
$DIMRND
 40
0.0
  9
$DIMDLE
 40
0.0
  9
$DIMEXE
 40
1.0
  9
$DIMTP
 40
0.0
  9
$DIMTM
 40
0.0
  9
$DIMTXT
 40
3.5
  9
$DIMCEN
 40
2.5
  9
$DIMTSZ
 40
0.0
  9
$DIMTOL
 70
     0
  9
$DIMLIM
 70
     0
  9
$DIMTIH
 70
     1
  9
$DIMTOH
 70
     1
  9
$DIMSE1
 70
     0
  9
$DIMSE2
 70
     0
  9
$DIMTAD
 70
     1
  9
$DIMZIN
 70
     0
  9
$DIMBLK
  1

  9
$DIMASO
 70
     1
  9
$DIMSHO
 70
     1
  9
$DIMPOST
  1

  9
$DIMAPOST
  1

  9
$DIMALT
 70
     0
  9
$DIMALTD
 70
     3
  9
$DIMALTF
 40
0.0393700787
  9
$DIMLFAC
 40
1.0
  9
$DIMTOFL
 70
     1
  9
$DIMTVP
 40
0.0
  9
$DIMTIX
 70
     0
  9
$DIMSOXD
 70
     0
  9
$DIMSAH
 70
     0
  9
$DIMBLK1
  1

  9
$DIMBLK2
  1

  9
$DIMSTYLE
  2
ISO-25
  9
$DIMCLRD
 70
     0
  9
$DIMCLRE
 70
     0
  9
$DIMCLRT
 70
     0
  9
$DIMTFAC
 40
1.0
  9
$DIMGAP
 40
1.524
  9
$DIMJUST
 70
     0
  9
$DIMSD1
 70
     0
  9
$DIMSD2
 70
     0
  9
$DIMTOLJ
 70
     0
  9
$DIMTZIN
 70
     0
  9
$DIMALTZ
 70
     0
  9
$DIMALTTZ
 70
     0
  9
$DIMUPT
 70
     0
  9
$DIMDEC
 70
     2
  9
$DIMTDEC
 70
     2
  9
$DIMALTU
 70
     2
  9
$DIMALTTD
 70
     3
  9
$DIMTXSTY
  7
Standard
  9
$DIMAUNIT
 70
     0
  9
$DIMADEC
 70
     2
  9
$DIMALTRND
 40
0.0
  9
$DIMAZIN
 70
     0
  9
$DIMDSEP
 70
    44
  9
$DIMATFIT
 70
     3
  9
$DIMFRAC
 70
     0
  9
$DIMLDRBLK
  1

  9
$DIMLUNIT
 70
     2
  9
$DIMLWD
 70
    -2
  9
$DIMLWE
 70
    -2
  9
$DIMTMOVE
 70
     0
  9
$LUNITS
 70
     2
  9
$LUPREC
 70
     2
  9
$SKETCHINC
 40
1.0
  9
$FILLETRAD
 40
10.0
  9
$AUNITS
 70
     0
  9
$AUPREC
 70
     2
  9
$MENU
  1
.
  9
$ELEVATION
 40
0.0
  9
$PELEVATION
 40
0.0
  9
$THICKNESS
 40
0.0
  9
$LIMCHECK
 70
     0
  9
$CHAMFERA
 40
0.0
  9
$CHAMFERB
 40
0.0
  9
$CHAMFERC
 40
0.0
  9
$CHAMFERD
 40
0.0
  9
$SKPOLY
 70
     0
  9
$TDCREATE
 40
2459935.699328484
  9
$TDUCREATE
 40
2459935.574328484
  9
$TDUPDATE
 40
2459935.699328657
  9
$TDUUPDATE
 40
2459935.574328657
  9
$TDINDWG
 40
0.0000000116
  9
$TDUSRTIMER
 40
0.0000000116
  9
$USRTIMER
 70
     1
  9
$ANGBASE
 50
0.0
  9
$ANGDIR
 70
     0
  9
$PDMODE
 70
     0
  9
$PDSIZE
 40
-1.0
  9
$PLINEWID
 40
0.0
  9
$SPLFRAME
 70
     0
  9
$SPLINETYPE
 70
     6
  9
$SPLINESEGS
 70
     8
  9
$HANDSEED
  5
ED
  9
$SURFTAB1
 70
     6
  9
$SURFTAB2
 70
     6
  9
$SURFTYPE
 70
     6
  9
$SURFU
 70
     6
  9
$SURFV
 70
     6
  9
$UCSBASE
  2

  9
$UCSNAME
  2

  9
$UCSORG
 10
0.0
 20
0.0
 30
0.0
  9
$UCSXDIR
 10
1.0
 20
0.0
 30
0.0
  9
$UCSYDIR
 10
0.0
 20
1.0
 30
0.0
  9
$UCSORTHOREF
  2

  9
$UCSORTHOVIEW
 70
     0
  9
$UCSORGTOP
 10
0.0
 20
0.0
 30
0.0
  9
$UCSORGBOTTOM
 10
0.0
 20
0.0
 30
0.0
  9
$UCSORGLEFT
 10
0.0
 20
0.0
 30
0.0
  9
$UCSORGRIGHT
 10
0.0
 20
0.0
 30
0.0
  9
$UCSORGFRONT
 10
0.0
 20
0.0
 30
0.0
  9
$UCSORGBACK
 10
0.0
 20
0.0
 30
0.0
  9
$PUCSBASE
  2

  9
$PUCSNAME
  2

  9
$PUCSORG
 10
0.0
 20
0.0
 30
0.0
  9
$PUCSXDIR
 10
1.0
 20
0.0
 30
0.0
  9
$PUCSYDIR
 10
0.0
 20
1.0
 30
0.0
  9
$PUCSORTHOREF
  2

  9
$PUCSORTHOVIEW
 70
     0
  9
$PUCSORGTOP
 10
0.0
 20
0.0
 30
0.0
  9
$PUCSORGBOTTOM
 10
0.0
 20
0.0
 30
0.0
  9
$PUCSORGLEFT
 10
0.0
 20
0.0
 30
0.0
  9
$PUCSORGRIGHT
 10
0.0
 20
0.0
 30
0.0
  9
$PUCSORGFRONT
 10
0.0
 20
0.0
 30
0.0
  9
$PUCSORGBACK
 10
0.0
 20
0.0
 30
0.0
  9
$USERI1
 70
     0
  9
$USERI2
 70
     0
  9
$USERI3
 70
     0
  9
$USERI4
 70
     0
  9
$USERI5
 70
     0
  9
$USERR1
 40
0.0
  9
$USERR2
 40
0.0
  9
$USERR3
 40
0.0
  9
$USERR4
 40
0.0
  9
$USERR5
 40
0.0
  9
$WORLDVIEW
 70
     1
  9
$SHADEDGE
 70
     3
  9
$SHADEDIF
 70
    70
  9
$TILEMODE
 70
     1
  9
$MAXACTVP
 70
    64
  9
$PINSBASE
 10
0.0
 20
0.0
 30
0.0
  9
$PLIMCHECK
 70
     0
  9
$PEXTMIN
 10
1.0000000000E+20
 20
1.0000000000E+20
 30
1.0000000000E+20
  9
$PEXTMAX
 10
-1.0000000000E+20
 20
-1.0000000000E+20
 30
-1.0000000000E+20
  9
$PLIMMIN
 10
0.0
 20
0.0
  9
$PLIMMAX
 10
420.0
 20
297.0
  9
$UNITMODE
 70
     0
  9
$VISRETAIN
 70
     1
  9
$PLINEGEN
 70
     0
  9
$PSLTSCALE
 70
     1
  9
$TREEDEPTH
 70
  3020
  9
$CMLSTYLE
  2
Standard
  9
$CMLJUST
 70
     0
  9
$CMLSCALE
 40
20.0
  9
$PROXYGRAPHICS
 70
     1
  9
$MEASUREMENT
 70
     1
  9
$CELWEIGHT
370
    -1
  9
$ENDCAPS
280
     0
  9
$JOINSTYLE
280
     0
  9
$LWDISPLAY
290
     1
  9
$INSUNITS
 70
     4
  9
$HYPERLINKBASE
  1

  9
$STYLESHEET
  1

  9
$XEDIT
290
     1
  9
$CEPSNTYPE
380
     0
  9
$PSTYLEMODE
290
     1
  9
$FINGERPRINTGUID
  2
{3229009c-892a-4d67-bfc0-02d47049e326}
  9
$VERSIONGUID
  2
{FAEB1C32-E019-11D5-929B-00C0DF256EC4}
  9
$EXTNAMES
290
     1
  9
$PSVPSCALE
 40
0.0
  9
$OLESTARTUP
290
     0
  0
ENDSEC
  0
SECTION
  2
CLASSES
  0
CLASS
  1
ACDBDICTIONARYWDFLT
  2
AcDbDictionaryWithDefault
  3
ObjectDBX Classes
 90
        0
280
     0
281
     0
  0
CLASS
  1
VISUALSTYLE
  2
AcDbVisualStyle
  3
ObjectDBX Classes
 90
     4095
280
     0
281
     0
  0
CLASS
  1
MATERIAL
  2
AcDbMaterial
  3
ObjectDBX Classes
 90
     1153
280
     0
281
     0
  0
CLASS
  1
SCALE
  2
AcDbScale
  3
ObjectDBX Classes
 90
     1153
280
     0
281
     0
  0
CLASS
  1
TABLESTYLE
  2
AcDbTableStyle
  3
ObjectDBX Classes
 90
     4095
280
     0
281
     0
  0
CLASS
  1
MLEADERSTYLE
  2
AcDbMLeaderStyle
  3
ACDB_MLEADERSTYLE_CLASS
 90
     4095
280
     0
281
     0
  0
CLASS
  1
SUN
  2
AcDbSun
  3
SCENEOE
 90
     1153
280
     0
281
     0
  0
CLASS
  1
ACDBPLACEHOLDER
  2
AcDbPlaceHolder
  3
ObjectDBX Classes
 90
        0
280
     0
281
     0
  0
CLASS
  1
LAYOUT
  2
AcDbLayout
  3
ObjectDBX Classes
 90
        0
280
     0
281
     0
  0
ENDSEC
  0
SECTION
  2
TABLES
  0
TABLE
  2
VPORT
  5
8
330
0
100
AcDbSymbolTable
 70
     1
  0
VPORT
  5
29
330
8
100
AcDbSymbolTableRecord
100
AcDbViewportTableRecord
  2
*Active
 70
     0
 10
0.0
 20
0.0
 11
1.0
 21
1.0
 12
139.7
 22
107.95
 13
0.0
 23
0.0
 14
10.0
 24
10.0
 15
10.0
 25
10.0
 16
0.0
 26
0.0
 36
1.0
 17
0.0
 27
0.0
 37
0.0
 40
215.9
 41
1.2941176471
 42
50.0
 43
0.0
 44
0.0
 50
0.0
 51
0.0
 71
     0
 72
  2000
 73
     1
 74
     3
 75
     0
 76
     0
 77
     0
 78
     0
281
     0
 65
     1
110
0.0
120
0.0
130
0.0
111
1.0
121
0.0
131
0.0
112
0.0
122
1.0
132
0.0
 79
     0
146
0.0
  0
ENDTAB
  0
TABLE
  2
LTYPE
  5
5
330
0
100
AcDbSymbolTable
 70
     6
  0
LTYPE
  5
14
330
5
100
AcDbSymbolTableRecord
100
AcDbLinetypeTableRecord
  2
ByBlock
 70
     0
  3

 72
    65
 73
     0
 40
0.0
  0
LTYPE
  5
15
330
5
100
AcDbSymbolTableRecord
100
AcDbLinetypeTableRecord
  2
ByLayer
 70
     0
  3

 72
    65
 73
     0
 40
0.0
  0
LTYPE
  5
16
330
5
100
AcDbSymbolTableRecord
100
AcDbLinetypeTableRecord
  2
Continuous
 70
     0
  3
Solid line
 72
    65
 73
     0
 40
0.0
  0
LTYPE
  5
6E
330
5
100
AcDbSymbolTableRecord
100
AcDbLinetypeTableRecord
  2
HIDDEN
 70
     0
  3
Hidden __ __ __ __ __ __ __ __ __ __ __ __ __ __
 72
    65
 73
     2
 40
1.905
 49
1.27
 74
     0
 49
-0.635
 74
     0
  0
LTYPE
  5
6F
330
5
100
AcDbSymbolTableRecord
100
AcDbLinetypeTableRecord
  2
PHANTOM
 70
     0
  3
Phantom ______  __  __  ______  __  __  ______
 72
    65
 73
     6
 40
12.7
 49
6.35
 74
     0
 49
-1.27
 74
     0
 49
1.27
 74
     0
 49
-1.27
 74
     0
 49
1.27
 74
     0
 49
-1.27
 74
     0
  0
LTYPE
  5
70
330
5
100
AcDbSymbolTableRecord
100
AcDbLinetypeTableRecord
  2
CENTER
 70
     0
  3
Center ____ _ ____ _ ____ _ ____ _ ____ _ ____
 72
    65
 73
     4
 40
10.16
 49
6.35
 74
     0
 49
-1.27
 74
     0
 49
1.27
 74
     0
 49
-1.27
 74
     0
  0
LTYPE
  5
71
330
5
100
AcDbSymbolTableRecord
100
AcDbLinetypeTableRecord
  2
CENTERX2
 70
     0
  3
Center (2x) ________  __  ________  __  _____
 72
    65
 73
     4
 40
20.32
 49
12.7
 74
     0
 49
-2.54
 74
     0
 49
2.54
 74
     0
 49
-2.54
 74
     0
  0
LTYPE
  5
72
330
5
100
AcDbSymbolTableRecord
100
AcDbLinetypeTableRecord
  2
DOT2
 70
     0
  3
Dot (.5x) ........................................
 72
    65
 73
     2
 40
0.635
 49
0.0
 74
     0
 49
-0.635
 74
     0
  0
ENDTAB
  0
TABLE
  2
LAYER
  5
2
330
0
100
AcDbSymbolTable
 70
    17
  0
LAYER
  5
10
330
2
100
AcDbSymbolTableRecord
100
AcDbLayerTableRecord
  2
0
 70
     0
 62
     7
  6
Continuous
370
    -3
390
F
  0
LAYER
  5
73
330
2
100
AcDbSymbolTableRecord
100
AcDbLayerTableRecord
  2
FORMAT
 70
     0
 62
     7
  6
Continuous
370
    -3
390
F
  0
LAYER
  5
74
330
2
100
AcDbSymbolTableRecord
100
AcDbLayerTableRecord
  2
YARDIMCI_GEOMETRI
 70
     0
 62
    -6
  6
Continuous
290
     0
370
    -3
390
F
  0
LAYER
  5
75
330
2
100
AcDbSymbolTableRecord
100
AcDbLayerTableRecord
  2
SAYFA_CERCEVESI
 70
     0
 62
     7
  6
Continuous
370
    25
390
F
  0
LAYER
  5
76
330
2
100
AcDbSymbolTableRecord
100
AcDbLayerTableRecord
  2
ANTET
 70
     0
 62
     7
  6
Continuous
370
    -3
390
F
  0
LAYER
  5
77
330
2
100
AcDbSymbolTableRecord
100
AcDbLayerTableRecord
  2
OLCU
 70
     0
 62
   150
  6
Continuous
370
    -3
390
F
  0
LAYER
  5
78
330
2
100
AcDbSymbolTableRecord
100
AcDbLayerTableRecord
  2
METIN
 70
     0
 62
    96
  6
Continuous
370
    -3
390
F
  0
LAYER
  5
79
330
2
100
AcDbSymbolTableRecord
100
AcDbLayerTableRecord
  2
BALON
 70
     0
 62
     5
  6
Continuous
370
    -3
390
F
  0
LAYER
  5
7A
330
2
100
AcDbSymbolTableRecord
100
AcDbLayerTableRecord
  2
VURGU
 70
     0
 62
     7
  6
Continuous
370
    -3
390
F
  0
LAYER
  5
7B
330
2
100
AcDbSymbolTableRecord
100
AcDbLayerTableRecord
  2
SILIK
 70
     0
 62
     7
  6
Continuous
370
    -3
390
F
  0
LAYER
  5
7C
330
2
100
AcDbSymbolTableRecord
100
AcDbLayerTableRecord
  2
MODEL
 70
     0
 62
     7
  6
Continuous
370
    -3
390
F
  0
LAYER
  5
7D
330
2
100
AcDbSymbolTableRecord
100
AcDbLayerTableRecord
  2
DETAYLANDıRMA
 70
     0
 62
   190
  6
Continuous
370
    -3
390
F
  0
LAYER
  5
7E
330
2
100
AcDbSymbolTableRecord
100
AcDbLayerTableRecord
  2
TOLERANS
 70
     0
 62
   230
  6
Continuous
370
    -3
390
F
  0
LAYER
  5
7F
330
2
100
AcDbSymbolTableRecord
100
AcDbLayerTableRecord
  2
MERKEZ_CIZGILERI
 70
     0
 62
    30
  6
Continuous
370
    -3
390
F
  0
LAYER
  5
80
330
2
100
AcDbSymbolTableRecord
100
AcDbLayerTableRecord
  2
KESIT-DETAY_CIZGILERI
 70
     0
 62
     7
  6
Continuous
370
    -3
390
F
  0
LAYER
  5
81
330
2
100
AcDbSymbolTableRecord
100
AcDbLayerTableRecord
  2
\U+041E\U+0421\U+0415\U+0412\U+042B\U+0415
 70
     0
 62
     7
  6
Continuous
370
    -3
390
F
  0
LAYER
  5
82
330
2
100
AcDbSymbolTableRecord
100
AcDbLayerTableRecord
  2
\U+0412\U+041E\U+0414\U+042F\U+041D\U+042B\U+0415_\U+0417\U+041D\U+0410\U+041A\U+0418
 70
     0
 62
    11
  6
Continuous
370
    -3
390
F
  0
ENDTAB
  0
TABLE
  2
STYLE
  5
3
330
0
100
AcDbSymbolTable
 70
     1
  0
STYLE
  5
11
330
3
100
AcDbSymbolTableRecord
100
AcDbTextStyleTableRecord
  2
Standard
 70
     0
 40
0.0
 41
1.0
 50
0.0
 71
     0
 42
3.5
  3
txt
  4

  0
ENDTAB
  0
TABLE
  2
VIEW
  5
6
330
0
100
AcDbSymbolTable
 70
     0
  0
ENDTAB
  0
TABLE
  2
UCS
  5
7
330
0
100
AcDbSymbolTable
 70
     0
  0
ENDTAB
  0
TABLE
  2
APPID
  5
9
330
0
100
AcDbSymbolTable
 70
     1
  0
APPID
  5
12
330
9
100
AcDbSymbolTableRecord
100
AcDbRegAppTableRecord
  2
ACAD
 70
     0
  0
ENDTAB
  0
TABLE
  2
DIMSTYLE
  5
A
330
0
100
AcDbSymbolTable
 70
     1
100
AcDbDimStyleTable
  0
DIMSTYLE
105
27
330
A
100
AcDbSymbolTableRecord
100
AcDbDimStyleTableRecord
  2
ISO-25
 70
     0
 41
2.5
 42
0.625
 43
3.75
 44
1.25
 73
     0
 74
     0
 77
     1
 78
     8
140
2.5
141
2.5
143
0.0393700787
147
0.625
171
     3
172
     1
178
     0
271
     2
272
     2
274
     3
278
    44
283
     0
284
     8
340
11
  0
ENDTAB
  0
TABLE
  2
BLOCK_RECORD
  5
1
330
0
100
AcDbSymbolTable
 70
     5
  0
BLOCK_RECORD
  5
1F
330
1
100
AcDbSymbolTableRecord
100
AcDbBlockTableRecord
  2
*Model_Space
340
22
  0
BLOCK_RECORD
  5
1B
330
1
100
AcDbSymbolTableRecord
100
AcDbBlockTableRecord
  2
*Paper_Space
340
1E
  0
BLOCK_RECORD
  5
23
330
1
100
AcDbSymbolTableRecord
100
AcDbBlockTableRecord
  2
*Paper_Space0
340
26
  0
BLOCK_RECORD
  5
97
330
1
100
AcDbSymbolTableRecord
100
AcDbBlockTableRecord
  2
SW_CENTERMARKSYMBOL_0
340
0
102
{BLKREFS
331
A2
102
}
  0
BLOCK_RECORD
  5
AC
330
1
100
AcDbSymbolTableRecord
100
AcDbBlockTableRecord
  2
SW_CENTERMARKSYMBOL_1
340
0
102
{BLKREFS
331
B7
102
}
  0
BLOCK_RECORD
  5
BF
330
1
100
AcDbSymbolTableRecord
100
AcDbBlockTableRecord
  2
SW_CENTERMARKSYMBOL_2
340
0
102
{BLKREFS
331
CA
102
}
  0
BLOCK_RECORD
  5
D2
330
1
100
AcDbSymbolTableRecord
100
AcDbBlockTableRecord
  2
SW_CENTERMARKSYMBOL_3
340
0
102
{BLKREFS
331
DD
102
}
  0
ENDTAB
  0
ENDSEC
  0
SECTION
  2
BLOCKS
  0
BLOCK
  5
20
330
1F
100
AcDbEntity
  8
0
100
AcDbBlockBegin
  2
*Model_Space
 70
     0
 10
0.0
 20
0.0
 30
0.0
  3
*Model_Space
  1

  0
ENDBLK
  5
21
330
1F
100
AcDbEntity
  8
0
100
AcDbBlockEnd
  0
BLOCK
  5
1C
330
1B
100
AcDbEntity
 67
     1
  8
0
100
AcDbBlockBegin
  2
*Paper_Space
 70
     0
 10
0.0
 20
0.0
 30
0.0
  3
*Paper_Space
  1

  0
ENDBLK
  5
1D
330
1B
100
AcDbEntity
 67
     1
  8
0
100
AcDbBlockEnd
  0
BLOCK
  5
24
330
23
100
AcDbEntity
  8
0
100
AcDbBlockBegin
  2
*Paper_Space0
 70
     0
 10
0.0
 20
0.0
 30
0.0
  3
*Paper_Space0
  1

  0
ENDBLK
  5
25
330
23
100
AcDbEntity
  8
0
100
AcDbBlockEnd
  0
BLOCK
  5
98
330
97
100
AcDbEntity
  8
0
100
AcDbBlockBegin
  2
SW_CENTERMARKSYMBOL_0
 70
     0
 10
0.0
 20
0.0
 30
0.0
  3
SW_CENTERMARKSYMBOL_0
  1

  0
LINE
  5
9A
330
97
100
AcDbEntity
  8
FORMAT
 62
     0
100
AcDbLine
 10
0.0
 20
0.0
 30
0.0
 11
0.0
 21
2.5
 31
0.0
  0
LINE
  5
9B
330
97
100
AcDbEntity
  8
FORMAT
 62
     0
100
AcDbLine
 10
0.0
 20
0.0
 30
0.0
 11
-2.5
 21
0.0
 31
0.0
  0
LINE
  5
9C
330
97
100
AcDbEntity
  8
FORMAT
 62
     0
100
AcDbLine
 10
0.0
 20
0.0
 30
0.0
 11
0.0
 21
-2.5
 31
0.0
  0
LINE
  5
9D
330
97
100
AcDbEntity
  8
FORMAT
 62
     0
100
AcDbLine
 10
0.0
 20
0.0
 30
0.0
 11
2.5
 21
0.0
 31
0.0
  0
LINE
  5
9E
330
97
100
AcDbEntity
  8
FORMAT
 62
     0
100
AcDbLine
 10
0.0
 20
5.0
 30
0.0
 11
0.0
 21
40.0
 31
0.0
  0
LINE
  5
9F
330
97
100
AcDbEntity
  8
FORMAT
 62
     0
100
AcDbLine
 10
-5.0
 20
0.0
 30
0.0
 11
-40.0
 21
0.0
 31
0.0
  0
LINE
  5
A0
330
97
100
AcDbEntity
  8
FORMAT
 62
     0
100
AcDbLine
 10
0.0
 20
-5.0
 30
0.0
 11
0.0
 21
-40.0
 31
0.0
  0
LINE
  5
A1
330
97
100
AcDbEntity
  8
FORMAT
 62
     0
100
AcDbLine
 10
5.0
 20
0.0
 30
0.0
 11
40.0
 21
0.0
 31
0.0
  0
ENDBLK
  5
99
330
97
100
AcDbEntity
  8
0
100
AcDbBlockEnd
  0
BLOCK
  5
AD
330
AC
100
AcDbEntity
  8
0
100
AcDbBlockBegin
  2
SW_CENTERMARKSYMBOL_1
 70
     0
 10
0.0
 20
0.0
 30
0.0
  3
SW_CENTERMARKSYMBOL_1
  1

  0
LINE
  5
AF
330
AC
100
AcDbEntity
  8
FORMAT
 62
     0
100
AcDbLine
 10
0.0
 20
0.0
 30
0.0
 11
0.0
 21
2.5
 31
0.0
  0
LINE
  5
B0
330
AC
100
AcDbEntity
  8
FORMAT
 62
     0
100
AcDbLine
 10
0.0
 20
0.0
 30
0.0
 11
-2.5
 21
0.0
 31
0.0
  0
LINE
  5
B1
330
AC
100
AcDbEntity
  8
FORMAT
 62
     0
100
AcDbLine
 10
0.0
 20
0.0
 30
0.0
 11
0.0
 21
-2.5
 31
0.0
  0
LINE
  5
B2
330
AC
100
AcDbEntity
  8
FORMAT
 62
     0
100
AcDbLine
 10
0.0
 20
0.0
 30
0.0
 11
2.5
 21
0.0
 31
0.0
  0
LINE
  5
B3
330
AC
100
AcDbEntity
  8
FORMAT
 62
     0
100
AcDbLine
 10
0.0
 20
5.0
 30
0.0
 11
0.0
 21
40.0
 31
0.0
  0
LINE
  5
B4
330
AC
100
AcDbEntity
  8
FORMAT
 62
     0
100
AcDbLine
 10
-5.0
 20
0.0
 30
0.0
 11
-40.0
 21
0.0
 31
0.0
  0
LINE
  5
B5
330
AC
100
AcDbEntity
  8
FORMAT
 62
     0
100
AcDbLine
 10
0.0
 20
-5.0
 30
0.0
 11
0.0
 21
-40.0
 31
0.0
  0
LINE
  5
B6
330
AC
100
AcDbEntity
  8
FORMAT
 62
     0
100
AcDbLine
 10
5.0
 20
0.0
 30
0.0
 11
40.0
 21
0.0
 31
0.0
  0
ENDBLK
  5
AE
330
AC
100
AcDbEntity
  8
0
100
AcDbBlockEnd
  0
BLOCK
  5
C0
330
BF
100
AcDbEntity
  8
0
100
AcDbBlockBegin
  2
SW_CENTERMARKSYMBOL_2
 70
     0
 10
0.0
 20
0.0
 30
0.0
  3
SW_CENTERMARKSYMBOL_2
  1

  0
LINE
  5
C2
330
BF
100
AcDbEntity
  8
FORMAT
 62
     0
100
AcDbLine
 10
0.0
 20
0.0
 30
0.0
 11
0.0
 21
2.5
 31
0.0
  0
LINE
  5
C3
330
BF
100
AcDbEntity
  8
FORMAT
 62
     0
100
AcDbLine
 10
0.0
 20
0.0
 30
0.0
 11
-2.5
 21
0.0
 31
0.0
  0
LINE
  5
C4
330
BF
100
AcDbEntity
  8
FORMAT
 62
     0
100
AcDbLine
 10
0.0
 20
0.0
 30
0.0
 11
0.0
 21
-2.5
 31
0.0
  0
LINE
  5
C5
330
BF
100
AcDbEntity
  8
FORMAT
 62
     0
100
AcDbLine
 10
0.0
 20
0.0
 30
0.0
 11
2.5
 21
0.0
 31
0.0
  0
LINE
  5
C6
330
BF
100
AcDbEntity
  8
FORMAT
 62
     0
100
AcDbLine
 10
0.0
 20
5.0
 30
0.0
 11
0.0
 21
40.0
 31
0.0
  0
LINE
  5
C7
330
BF
100
AcDbEntity
  8
FORMAT
 62
     0
100
AcDbLine
 10
-5.0
 20
0.0
 30
0.0
 11
-40.0
 21
0.0
 31
0.0
  0
LINE
  5
C8
330
BF
100
AcDbEntity
  8
FORMAT
 62
     0
100
AcDbLine
 10
0.0
 20
-5.0
 30
0.0
 11
0.0
 21
-40.0
 31
0.0
  0
LINE
  5
C9
330
BF
100
AcDbEntity
  8
FORMAT
 62
     0
100
AcDbLine
 10
5.0
 20
0.0
 30
0.0
 11
40.0
 21
0.0
 31
0.0
  0
ENDBLK
  5
C1
330
BF
100
AcDbEntity
  8
0
100
AcDbBlockEnd
  0
BLOCK
  5
D3
330
D2
100
AcDbEntity
  8
0
100
AcDbBlockBegin
  2
SW_CENTERMARKSYMBOL_3
 70
     0
 10
0.0
 20
0.0
 30
0.0
  3
SW_CENTERMARKSYMBOL_3
  1

  0
LINE
  5
D5
330
D2
100
AcDbEntity
  8
FORMAT
 62
     0
100
AcDbLine
 10
0.0
 20
0.0
 30
0.0
 11
0.0
 21
2.5
 31
0.0
  0
LINE
  5
D6
330
D2
100
AcDbEntity
  8
FORMAT
 62
     0
100
AcDbLine
 10
0.0
 20
0.0
 30
0.0
 11
-2.5
 21
0.0
 31
0.0
  0
LINE
  5
D7
330
D2
100
AcDbEntity
  8
FORMAT
 62
     0
100
AcDbLine
 10
0.0
 20
0.0
 30
0.0
 11
0.0
 21
-2.5
 31
0.0
  0
LINE
  5
D8
330
D2
100
AcDbEntity
  8
FORMAT
 62
     0
100
AcDbLine
 10
0.0
 20
0.0
 30
0.0
 11
2.5
 21
0.0
 31
0.0
  0
LINE
  5
D9
330
D2
100
AcDbEntity
  8
FORMAT
 62
     0
100
AcDbLine
 10
0.0
 20
5.0
 30
0.0
 11
0.0
 21
40.0
 31
0.0
  0
LINE
  5
DA
330
D2
100
AcDbEntity
  8
FORMAT
 62
     0
100
AcDbLine
 10
-5.0
 20
0.0
 30
0.0
 11
-40.0
 21
0.0
 31
0.0
  0
LINE
  5
DB
330
D2
100
AcDbEntity
  8
FORMAT
 62
     0
100
AcDbLine
 10
0.0
 20
-5.0
 30
0.0
 11
0.0
 21
-40.0
 31
0.0
  0
LINE
  5
DC
330
D2
100
AcDbEntity
  8
FORMAT
 62
     0
100
AcDbLine
 10
5.0
 20
0.0
 30
0.0
 11
40.0
 21
0.0
 31
0.0
  0
ENDBLK
  5
D4
330
D2
100
AcDbEntity
  8
0
100
AcDbBlockEnd
  0
ENDSEC
  0
SECTION
  2
ENTITIES
  0
LINE
  5
83
330
1F
100
AcDbEntity
  8
0
  6
Continuous
 62
     7
370
    25
100
AcDbLine
 10
71.2296141522
 20
115.7547047789
 30
0.0
 11
71.2296141522
 21
27.2547047789
 31
0.0
  0
LINE
  5
84
330
1F
100
AcDbEntity
  8
0
  6
Continuous
 62
     7
370
    25
100
AcDbLine
 10
146.2296141522
 20
27.2547047789
 30
0.0
 11
146.2296141522
 21
115.7547047789
 31
0.0
  0
ARC
  5
85
330
1F
100
AcDbEntity
  8
0
  6
Continuous
 62
     7
370
    25
100
AcDbCircle
 10
146.2296141522
 20
115.7547047789
 30
0.0
 40
75.00000000000001
100
AcDbArc
 50
90.0
 51
180.0
  0
LINE
  5
86
330
1F
100
AcDbEntity
  8
0
  6
Continuous
 62
     7
370
    25
100
AcDbLine
 10
234.7296141522
 20
190.7547047789
 30
0.0
 11
146.2296141522
 21
190.7547047789
 31
0.0
  0
LINE
  5
87
330
1F
100
AcDbEntity
  8
0
  6
Continuous
 62
     7
370
    25
100
AcDbLine
 10
146.2296141522
 20
115.7547047789
 30
0.0
 11
234.7296141522
 21
115.7547047789
 31
0.0
  0
LINE
  5
88
330
1F
100
AcDbEntity
  8
0
  6
Continuous
 62
     7
370
    25
100
AcDbLine
 10
108.7296141522
 20
27.2547047789
 30
0.0
 11
146.2296141522
 21
27.2547047789
 31
0.0
  0
LINE
  5
89
330
1F
100
AcDbEntity
  8
0
  6
Continuous
 62
     7
370
    25
100
AcDbLine
 10
71.2296141522
 20
27.2547047789
 30
0.0
 11
108.7296141522
 21
27.2547047789
 31
0.0
  0
LINE
  5
8A
330
1F
100
AcDbEntity
  8
0
  6
Continuous
 62
     7
370
    25
100
AcDbLine
 10
234.7296141522
 20
153.2547047789
 30
0.0
 11
234.7296141522
 21
115.7547047789
 31
0.0
  0
LINE
  5
8B
330
1F
100
AcDbEntity
  8
0
  6
Continuous
 62
     7
370
    25
100
AcDbLine
 10
234.7296141522
 20
190.7547047789
 30
0.0
 11
234.7296141522
 21
153.2547047789
 31
0.0
  0
LINE
  5
8C
330
1F
100
AcDbEntity
  8
0
  6
Continuous
 62
     1
370
    25
100
AcDbLine
 10
71.2296141522
 20
115.7547047789
 30
0.0
 11
146.2296141522
 21
115.7547047789
 31
0.0
  0
LINE
  5
8D
330
1F
100
AcDbEntity
  8
0
  6
Continuous
 62
     1
370
    25
100
AcDbLine
 10
146.2296141522
 20
190.7547047789
 30
0.0
 11
146.2296141522
 21
115.7547047789
 31
0.0
  0
LINE
  5
8E
330
1F
100
AcDbEntity
  8
0
  6
Continuous
 62
     7
370
    25
100
AcDbLine
 10
-125.8464113849
 20
115.7547047789
 30
0.0
 11
-125.8464113849
 21
27.2547047789
 31
0.0
  0
LINE
  5
8F
330
1F
100
AcDbEntity
  8
0
  6
Continuous
 62
     7
370
    25
100
AcDbLine
 10
-50.8464113849
 20
27.2547047789
 30
0.0
 11
-50.8464113849
 21
115.7547047789
 31
0.0
  0
LINE
  5
90
330
1F
100
AcDbEntity
  8
0
  6
Continuous
 62
     7
370
    25
100
AcDbLine
 10
-125.8464113849
 20
153.2547047789
 30
0.0
 11
-125.8464113849
 21
115.7547047789
 31
0.0
  0
LINE
  5
91
330
1F
100
AcDbEntity
  8
0
  6
Continuous
 62
     7
370
    25
100
AcDbLine
 10
-50.8464113849
 20
115.7547047789
 30
0.0
 11
-50.8464113849
 21
153.2547047789
 31
0.0
  0
CIRCLE
  5
92
330
1F
100
AcDbEntity
  8
0
  6
Continuous
 62
     7
370
    25
100
AcDbCircle
 10
-88.3464113849
 20
153.2547047789
 30
0.0
 40
37.50000000000003
  0
CIRCLE
  5
93
330
1F
100
AcDbEntity
  8
0
  6
Continuous
 62
     7
370
    25
100
AcDbCircle
 10
-88.3464113849
 20
153.2547047789
 30
0.0
 40
30.7
  0
LINE
  5
94
330
1F
100
AcDbEntity
  8
0
  6
Continuous
 62
     7
370
    25
100
AcDbLine
 10
-125.8464113849
 20
27.2547047789
 30
0.0
 11
-50.8464113849
 21
27.2547047789
 31
0.0
  0
LINE
  5
95
330
1F
100
AcDbEntity
  8
0
  6
Continuous
 62
     1
370
    25
100
AcDbLine
 10
-88.3464113849
 20
115.7547047789
 30
0.0
 11
-50.8464113849
 21
115.7547047789
 31
0.0
  0
LINE
  5
96
330
1F
100
AcDbEntity
  8
0
  6
Continuous
 62
     1
370
    25
100
AcDbLine
 10
-125.8464113849
 20
115.7547047789
 30
0.0
 11
-88.3464113849
 21
115.7547047789
 31
0.0
  0
INSERT
  5
A2
330
1F
100
AcDbEntity
  8
FORMAT
 62
     7
100
AcDbBlockReference
  2
SW_CENTERMARKSYMBOL_0
 10
-88.3464113849
 20
153.2547047789
 30
0.0
  0
LINE
  5
A3
330
1F
100
AcDbEntity
  8
0
  6
Continuous
 62
     7
370
    25
100
AcDbLine
 10
234.7296141522
 20
339.0400952748
 30
0.0
 11
146.2296141522
 21
339.0400952748
 31
0.0
  0
LINE
  5
A4
330
1F
100
AcDbEntity
  8
0
  6
Continuous
 62
     7
370
    25
100
AcDbLine
 10
146.2296141522
 20
264.0400952748
 30
0.0
 11
234.7296141522
 21
264.0400952748
 31
0.0
  0
LINE
  5
A5
330
1F
100
AcDbEntity
  8
0
  6
Continuous
 62
     7
370
    25
100
AcDbLine
 10
146.2296141522
 20
339.0400952748
 30
0.0
 11
108.7296141522
 21
339.0400952748
 31
0.0
  0
LINE
  5
A6
330
1F
100
AcDbEntity
  8
0
  6
Continuous
 62
     7
370
    25
100
AcDbLine
 10
108.7296141522
 20
264.0400952748
 30
0.0
 11
146.2296141522
 21
264.0400952748
 31
0.0
  0
CIRCLE
  5
A7
330
1F
100
AcDbEntity
  8
0
  6
Continuous
 62
     7
370
    25
100
AcDbCircle
 10
108.7296141522
 20
301.5400952748
 30
0.0
 40
30.69999999999999
  0
CIRCLE
  5
A8
330
1F
100
AcDbEntity
  8
0
  6
Continuous
 62
     7
370
    25
100
AcDbCircle
 10
108.7296141522
 20
301.5400952748
 30
0.0
 40
37.50000000000006
  0
LINE
  5
A9
330
1F
100
AcDbEntity
  8
0
  6
Continuous
 62
     7
370
    25
100
AcDbLine
 10
234.7296141522
 20
339.0400952748
 30
0.0
 11
234.7296141522
 21
264.0400952748
 31
0.0
  0
LINE
  5
AA
330
1F
100
AcDbEntity
  8
0
  6
Continuous
 62
     1
370
    25
100
AcDbLine
 10
146.2296141522
 20
301.5400952748
 30
0.0
 11
146.2296141522
 21
264.0400952748
 31
0.0
  0
LINE
  5
AB
330
1F
100
AcDbEntity
  8
0
  6
Continuous
 62
     1
370
    25
100
AcDbLine
 10
146.2296141522
 20
339.0400952748
 30
0.0
 11
146.2296141522
 21
301.5400952748
 31
0.0
  0
INSERT
  5
B7
330
1F
100
AcDbEntity
  8
FORMAT
 62
     7
100
AcDbBlockReference
  2
SW_CENTERMARKSYMBOL_1
 10
108.7296141522
 20
301.5400952748
 30
0.0
  0
LINE
  5
B8
330
1F
100
AcDbEntity
  8
0
  6
Continuous
 62
     7
370
    25
100
AcDbLine
 10
337.246718943
 20
115.7547047789
 30
0.0
 11
337.246718943
 21
27.2547047789
 31
0.0
  0
LINE
  5
B9
330
1F
100
AcDbEntity
  8
0
  6
Continuous
 62
     7
370
    25
100
AcDbLine
 10
412.246718943
 20
27.2547047789
 30
0.0
 11
412.246718943
 21
115.7547047789
 31
0.0
  0
LINE
  5
BA
330
1F
100
AcDbEntity
  8
0
  6
Continuous
 62
     7
370
    25
100
AcDbLine
 10
412.246718943
 20
115.7547047789
 30
0.0
 11
412.246718943
 21
153.2547047789
 31
0.0
  0
LINE
  5
BB
330
1F
100
AcDbEntity
  8
0
  6
Continuous
 62
     7
370
    25
100
AcDbLine
 10
337.246718943
 20
153.2547047789
 30
0.0
 11
337.246718943
 21
115.7547047789
 31
0.0
  0
LINE
  5
BC
330
1F
100
AcDbEntity
  8
0
  6
Continuous
 62
     7
370
    25
100
AcDbLine
 10
337.246718943
 20
27.2547047789
 30
0.0
 11
412.246718943
 21
27.2547047789
 31
0.0
  0
ARC
  5
BD
330
1F
100
AcDbEntity
  8
0
  6
Continuous
 62
     7
370
    25
100
AcDbCircle
 10
374.746718943
 20
153.2547047789
 30
0.0
 40
37.5
100
AcDbArc
 50
0.0
 51
180.0
  0
LINE
  5
BE
330
1F
100
AcDbEntity
  8
0
  6
Continuous
 62
     1
370
    25
100
AcDbLine
 10
337.246718943
 20
115.7547047789
 30
0.0
 11
412.246718943
 21
115.7547047789
 31
0.0
  0
INSERT
  5
CA
330
1F
100
AcDbEntity
  8
FORMAT
 62
     7
100
AcDbBlockReference
  2
SW_CENTERMARKSYMBOL_2
 10
374.746718943
 20
153.2547047789
 30
0.0
  0
LINE
  5
CB
330
1F
100
AcDbEntity
  8
0
  6
Continuous
 62
     7
370
    25
100
AcDbLine
 10
108.7296141522
 20
-145.3297946254
 30
0.0
 11
146.2296141522
 21
-145.3297946254
 31
0.0
  0
LINE
  5
CC
330
1F
100
AcDbEntity
  8
0
  6
Continuous
 62
     7
370
    25
100
AcDbLine
 10
146.2296141522
 20
-70.3297946254
 30
0.0
 11
108.7296141522
 21
-70.3297946254
 31
0.0
  0
LINE
  5
CD
330
1F
100
AcDbEntity
  8
0
  6
Continuous
 62
     7
370
    25
100
AcDbLine
 10
234.7296141522
 20
-70.3297946254
 30
0.0
 11
146.2296141522
 21
-70.3297946254
 31
0.0
  0
LINE
  5
CE
330
1F
100
AcDbEntity
  8
0
  6
Continuous
 62
     7
370
    25
100
AcDbLine
 10
146.2296141522
 20
-145.3297946254
 30
0.0
 11
234.7296141522
 21
-145.3297946254
 31
0.0
  0
ARC
  5
CF
330
1F
100
AcDbEntity
  8
0
  6
Continuous
 62
     7
370
    25
100
AcDbCircle
 10
108.7296141522
 20
-107.8297946254
 30
0.0
 40
37.50000000000001
100
AcDbArc
 50
90.0
 51
270.0
  0
LINE
  5
D0
330
1F
100
AcDbEntity
  8
0
  6
Continuous
 62
     7
370
    25
100
AcDbLine
 10
234.7296141522
 20
-70.3297946254
 30
0.0
 11
234.7296141522
 21
-145.3297946254
 31
0.0
  0
LINE
  5
D1
330
1F
100
AcDbEntity
  8
0
  6
Continuous
 62
     1
370
    25
100
AcDbLine
 10
146.2296141522
 20
-70.3297946254
 30
0.0
 11
146.2296141522
 21
-145.3297946254
 31
0.0
  0
INSERT
  5
DD
330
1F
100
AcDbEntity
  8
FORMAT
 62
     7
100
AcDbBlockReference
  2
SW_CENTERMARKSYMBOL_3
 10
108.7296141522
 20
-107.8297946254
 30
0.0
  0
LINE
  5
DE
330
1F
100
AcDbEntity
  8
0
  6
Continuous
 62
     7
370
    25
100
AcDbLine
 10
405.3821582399
 20
-3.4857822544
 30
0.0
 11
342.8032081049
 21
-39.6118412025
 31
0.0
  0
LINE
  5
DF
330
1F
100
AcDbEntity
  8
0
  6
Continuous
 62
     7
370
    25
100
AcDbLine
 10
380.3001605788
 20
-104.5655058811
 30
0.0
 11
442.8791107138
 21
-68.4394469329
 31
0.0
  0
LINE
  5
E0
330
1F
100
AcDbEntity
  8
0
  6
Continuous
 62
     7
370
    25
100
AcDbLine
 10
297.5351800474
 20
-118.0166060842
 30
0.0
 11
297.5351800474
 21
-190.2804679361
 31
0.0
  0
LINE
  5
E1
330
1F
100
AcDbEntity
  8
0
  6
Continuous
 62
     7
370
    25
100
AcDbLine
 10
372.5351800474
 20
-190.2804679361
 30
0.0
 11
372.5351800474
 21
-118.0166060842
 31
0.0
  0
SPLINE
  5
E2
330
1F
100
AcDbEntity
  8
0
  6
Continuous
 62
     7
370
    25
100
AcDbSpline
210
0.0
220
0.0
230
1.0
 70
     8
 71
     3
 72
    36
 73
    32
 74
     0
 42
0.00000001
 43
0.00000001
 40
0.0
 40
0.0
 40
0.0
 40
0.0
 40
0.0228363130402731
 40
0.0579254080975784
 40
0.0931101326053587
 40
0.1284740868487418
 40
0.1639427492068191
 40
0.1994354279401909
 40
0.2348998973330947
 40
0.2703024212235358
 40
0.3056236760605449
 40
0.3408571928630498
 40
0.3760071903631918
 40
0.4110863143194569
 40
0.4461135690333135
 40
0.4811125560377871
 40
0.5161100209985632
 40
0.5511346448439607
 40
0.5862066197532921
 40
0.6213552061467784
 40
0.6566091695147768
 40
0.6919951401817763
 40
0.7275360943166275
 40
0.7632494445558299
 40
0.7991446783216744
 40
0.8352205771582565
 40
0.8714622207971815
 40
0.9078382331329464
 40
0.9442946719455036
 40
0.9807422824354042
 40
0.9999999999999999
 40
0.9999999999999999
 40
0.9999999999999999
 40
0.9999999999999999
 10
342.8032081049311
 20
-39.61184120251576
 30
0.0
 10
342.2037016027901
 20
-39.96476580498942
 30
0.0
 10
340.683024480681
 20
-40.85997606024877
 30
0.0
 10
338.2922935405703
 20
-42.41036325708475
 30
0.0
 10
335.6394964011153
 20
-44.28249508143053
 30
0.0
 10
333.0433217678189
 20
-46.28002012887855
 30
0.0
 10
330.5069846023892
 20
-48.39551212216161
 30
0.0
 10
328.0382380099311
 20
-50.62141339950021
 30
0.0
 10
325.6432140872071
 20
-52.94930507674039
 30
0.0
 10
323.3266116916292
 20
-55.3717217069084
 30
0.0
 10
321.0920644631372
 20
-57.88176865906166
 30
0.0
 10
318.9424563062686
 20
-60.4732118279813
 30
0.0
 10
316.880125624783
 20
-63.14046355727903
 30
0.0
 10
314.9070702540832
 20
-65.8785432313494
 30
0.0
 10
313.0251204349367
 20
-68.68300464126476
 30
0.0
 10
311.236079634328
 20
-71.54985647673004
 30
0.0
 10
309.5418352602448
 20
-74.47548248589281
 30
0.0
 10
307.9445881708101
 20
-77.45629895058818
 30
0.0
 10
306.4467424909614
 20
-80.48891986649114
 30
0.0
 10
305.0509500085697
 20
-83.5701039956441
 30
0.0
 10
303.7600579944684
 20
-86.69695947455541
 30
0.0
 10
302.5772956254564
 20
-89.86658122904578
 30
0.0
 10
301.5063222036692
 20
-93.0758973669916
 30
0.0
 10
300.5512477632032
 20
-96.32148835388752
 30
0.0
 10
299.7166544255791
 20
-99.59935854962495
 30
0.0
 10
299.0074746017567
 20
-102.9046772781304
 30
0.0
 10
298.429184353465
 20
-106.2314598685154
 30
0.0
 10
297.9865124549796
 20
-109.5722841830141
 30
0.0
 10
297.6873826163645
 20
-112.9171488696772
 30
0.0
 10
297.5517988169313
 20
-115.733293649044
 30
0.0
 10
297.5394493452271
 20
-117.4300319178787
 30
0.0
 10
297.5351800473618
 20
-118.0166060841827
 30
0.0
  0
SPLINE
  5
E3
330
1F
100
AcDbEntity
  8
0
  6
Continuous
 62
     7
370
    25
100
AcDbSpline
210
0.0
220
0.0
230
1.0
 70
     8
 71
     3
 72
    32
 73
    28
 74
     0
 42
0.00000001
 43
0.00000001
 40
0.0
 40
0.0
 40
0.0
 40
0.0
 40
0.0142346588022032
 40
0.0589004013374243
 40
0.102038905956272
 40
0.1441087668612023
 40
0.1855166577314223
 40
0.226607693637904
 40
0.2676580740680822
 40
0.3088706387372344
 40
0.3503274835269294
 40
0.3921088724712647
 40
0.4342323800861094
 40
0.4766632132205566
 40
0.5193287413177973
 40
0.5621354269375878
 40
0.6049546256155839
 40
0.6477108271070208
 40
0.6903725788186184
 40
0.7329678140254718
 40
0.7755978597038469
 40
0.8184434202666012
 40
0.8616937095550212
 40
0.9056702066001896
 40
0.950771160255969
 40
0.9974602008252041
 40
1.0
 40
1.0
 40
1.0
 40
1.0
 10
372.5350876436171
 20
-118.0380400695646
 30
0.0
 10
372.5350085216751
 20
-118.0425077729437
 30
0.0
 10
372.5346811296244
 20
-118.0609943082194
 30
0.0
 10
372.5399599513643
 20
-117.953976054149
 30
0.0
 10
372.5668803030257
 20
-117.7153273124233
 30
0.0
 10
372.6254226993723
 20
-117.3404662949303
 30
0.0
 10
372.7245049001751
 20
-116.8500709024943
 30
0.0
 10
372.8720045697279
 20
-116.2508177827168
 30
0.0
 10
373.074178266122
 20
-115.5547169178804
 30
0.0
 10
373.3354206089431
 20
-114.7748380021981
 30
0.0
 10
373.6579620274683
 20
-113.9264933748593
 30
0.0
 10
374.041616501947
 20
-113.0267380841585
 30
0.0
 10
374.4837736438613
 20
-112.0938098297888
 30
0.0
 10
374.9790840968715
 20
-111.1471587441322
 30
0.0
 10
375.519422042991
 20
-110.2068759853306
 30
0.0
 10
376.0938677209737
 20
-109.2931889559535
 30
0.0
 10
376.6891400689722
 20
-108.4253421492813
 30
0.0
 10
377.2901412054297
 20
-107.6206801849459
 30
0.0
 10
377.8807321643213
 20
-106.8937382728869
 30
0.0
 10
378.4442362321172
 20
-106.2559482222841
 30
0.0
 10
378.9638315143608
 20
-105.7154777038166
 30
0.0
 10
379.4231984793481
 20
-105.2771610123071
 30
0.0
 10
379.8053066415023
 20
-104.9432740282337
 30
0.0
 10
380.0998247174533
 20
-104.7095600683606
 30
0.0
 10
380.2758488238886
 20
-104.5815615880959
 30
0.0
 10
380.351008445435
 20
-104.5355776216469
 30
0.0
 10
380.3297980705699
 20
-104.5479232831952
 30
0.0
 10
380.3287037914266
 20
-104.5485602167727
 30
0.0
  0
LWPOLYLINE
  5
E4
330
1F
100
AcDbEntity
  8
0
  6
Continuous
 62
     7
370
    25
100
AcDbPolyline
 90
       95
 70
   128
 43
0.0
 10
397.6141301824
 20
-20.654962497
 10
397.673344755
 20
-22.7343555191
 10
397.850724006
 20
-24.8728291574
 10
398.1454757168
 20
-27.0608324696
 10
398.5562834546
 20
-29.2885933017
 10
399.0813124524
 20
-31.546161933
 10
399.7182178031
 20
-33.8234555141
 10
400.4641549329
 20
-36.1103030988
 10
401.3157923054
 20
-38.3964910709
 10
402.2693263015
 20
-40.6718087597
 10
403.3204982068
 20
-42.9260940443
 10
404.4646132324
 20
-45.1492787392
 10
405.6965614829
 20
-47.3314335619
 10
407.0108407784
 20
-49.4628124793
 10
408.4015812283
 20
-51.5338962357
 10
409.8625714484
 20
-53.5354348684
 10
411.3872863016
 20
-55.4584890198
 10
412.9689160412
 20
-57.2944698633
 10
414.6003967249
 20
-59.0351774628
 10
416.274441764
 20
-60.6728373956
 10
417.9835744667
 20
-62.2001354748
 10
419.7201614318
 20
-63.6102504166
 10
421.4764466401
 20
-64.8968843052
 10
423.2445860955
 20
-66.0542907213
 10
425.0166828582
 20
-67.077300407
 10
426.7848223137
 20
-67.9613443527
 10
428.541107522
 20
-68.7024742034
 10
430.277694487
 20
-69.2973798934
 10
431.9868271898
 20
-69.7434044295
 10
433.6608722288
 20
-70.0385557577
 10
435.2923529125
 20
-70.1815156606
 10
436.8739826521
 20
-70.1716456446
 10
438.3986975053
 20
-70.0089897915
 10
439.8596877254
 20
-69.694274562
 10
441.2504281754
 20
-69.2289055505
 10
442.5647074708
 20
-68.6149612081
 10
443.7966557213
 20
-67.8551835592
 10
444.9407707469
 20
-66.9529659553
 10
445.9919426522
 20
-65.9123379192
 10
446.9454766483
 20
-64.7379471483
 10
447.7971140209
 20
-63.435038757
 10
448.5430511506
 20
-62.0094318502
 10
449.1799565014
 20
-60.4674935347
 10
449.7049854991
 20
-58.8161104811
 10
450.1157932369
 20
-57.0626581671
 10
450.4105449477
 20
-55.2149679365
 10
450.5879241988
 20
-53.2812920222
 10
450.6471387714
 20
-51.2702666903
 10
450.5879241988
 20
-49.1908736682
 10
450.4105449477
 20
-47.0524000299
 10
450.1157932369
 20
-44.8643967177
 10
449.7049854991
 20
-42.6366358856
 10
449.1799565014
 20
-40.3790672542
 10
448.5430511506
 20
-38.1017736732
 10
447.7971140209
 20
-35.8149260885
 10
446.9454766483
 20
-33.5287381164
 10
445.9919426522
 20
-31.2534204275
 10
444.9407707469
 20
-28.999135143
 10
443.7966557213
 20
-26.7759504481
 10
442.5647074708
 20
-24.5937956254
 10
441.2504281754
 20
-22.462416708
 10
439.8596877254
 20
-20.3913329515
 10
438.3986975053
 20
-18.3897943189
 10
436.8739826521
 20
-16.4667401675
 10
435.2923529125
 20
-14.630759324
 10
433.6608722288
 20
-12.8900517245
 10
431.9868271898
 20
-11.2523917917
 10
430.277694487
 20
-9.7250937124
 10
428.541107522
 20
-8.3149787707
 10
426.7848223137
 20
-7.0283448821
 10
425.0166828582
 20
-5.870938466
 10
423.2445860955
 20
-4.8479287803
 10
421.4764466401
 20
-3.9638848346
 10
419.7201614318
 20
-3.2227549839
 10
417.9835744667
 20
-2.6278492939
 10
416.274441764
 20
-2.1818247578
 10
414.6003967249
 20
-1.8866734296
 10
412.9689160412
 20
-1.7437135267
 10
411.3872863016
 20
-1.7535835427
 10
409.8625714484
 20
-1.9162393957
 10
408.4015812283
 20
-2.2309546253
 10
407.0108407784
 20
-2.6963236368
 10
405.6965614829
 20
-3.3102679792
 10
404.4646132324
 20
-4.070045628
 10
403.3204982068
 20
-4.9722632319
 10
402.2693263015
 20
-6.012891268
 10
401.3157923054
 20
-7.1872820389
 10
400.4641549329
 20
-8.4901904303
 10
399.7182178031
 20
-9.915797337
 10
399.0813124524
 20
-11.4577356526
 10
398.5562834546
 20
-13.1091187062
 10
398.1454757168
 20
-14.8625710201
 10
397.850724006
 20
-16.7102612508
 10
397.673344755
 20
-18.6439371651
 10
397.6141301824
 20
-20.654962497
  0
LWPOLYLINE
  5
E5
330
1F
100
AcDbEntity
  8
0
  6
Continuous
 62
     7
370
    25
100
AcDbPolyline
 90
       86
 70
   128
 43
0.0
 10
402.4224562944
 20
-23.4307500772
 10
402.4817375652
 20
-21.6136518221
 10
402.6592576036
 20
-19.8749226258
 10
402.9540468569
 20
-18.2240588243
 10
403.3644952883
 20
-16.6700768632
 10
403.8883611708
 20
-15.2214640531
 10
404.5227833307
 20
-13.8861322148
 10
405.2642967741
 20
-12.6713744678
 10
406.1088516117
 20
-11.5838253976
 10
407.0518351779
 20
-10.6294248201
 10
408.0880972234
 20
-9.8133853403
 10
409.2119780443
 20
-9.1401638829
 10
410.4173393933
 20
-8.61343735
 10
411.6975980047
 20
-8.2360825392
 10
413.0457615498
 20
-8.0101604318
 10
414.4544668269
 20
-7.936904936
 10
415.9160199763
 20
-8.0167161477
 10
417.4224385016
 20
-8.2491581659
 10
418.965494867
 20
-8.6329614729
 10
420.5367614339
 20
-9.1660298681
 10
422.127656489
 20
-9.8454519167
 10
423.7294911154
 20
-10.6675168513
 10
425.3335166477
 20
-11.627734838
 10
426.9309724547
 20
-12.7208614993
 10
428.5131337867
 20
-13.9409265565
 10
430.0713594273
 20
-15.2812664372
 10
431.5971388882
 20
-16.7345606699
 10
433.0821388912
 20
-18.2928718653
 10
434.5182488813
 20
-19.9476890682
 10
435.8976253236
 20
-21.6899742407
 10
437.2127345423
 20
-23.5102116255
 10
438.456393867
 20
-25.3984597172
 10
439.6218108616
 20
-27.3444055595
 10
440.7026204228
 20
-29.337421071
 10
441.6929195434
 20
-31.366621092
 10
442.587299553
 20
-33.4209228359
 10
443.3808756583
 20
-35.4891064187
 10
444.0693136217
 20
-37.5598761389
 10
444.6488534337
 20
-39.6219221705
 10
445.116329849
 20
-41.663982333
 10
445.4691896733
 20
-43.674903602
 10
445.7055057088
 20
-45.6437030229
 10
445.8239872792
 20
-47.5596276959
 10
445.8239872792
 20
-49.4122135048
 10
445.7055057088
 20
-51.1913422684
 10
445.4691896733
 20
-52.8872970024
 10
445.116329849
 20
-54.49081499
 10
444.6488534337
 20
-55.9931383721
 10
444.0693136217
 20
-57.3860619794
 10
443.3808756583
 20
-58.6619781461
 10
442.587299553
 20
-59.8139182605
 10
441.6929195434
 20
-60.8355908253
 10
440.7026204228
 20
-61.7214158191
 10
439.6218108616
 20
-62.4665551731
 10
438.456393867
 20
-63.0669391944
 10
437.2127345423
 20
-63.5192887938
 10
435.8976253236
 20
-63.8211333946
 10
434.5182488813
 20
-63.9708244262
 10
433.0821388912
 20
-63.9675443281
 10
431.5971388882
 20
-63.8113110152
 10
430.0713594273
 20
-63.5029777796
 10
428.5131337867
 20
-63.0442286304
 10
426.9309724547
 20
-62.4375690965
 10
425.3335166477
 20
-61.6863125419
 10
423.7294911154
 20
-60.7945620693
 10
422.127656489
 20
-59.7671881106
 10
420.5367614339
 20
-58.6098018262
 10
418.965494867
 20
-57.3287244584
 10
417.4224385016
 20
-55.9309528078
 10
415.9160199763
 20
-54.4241210182
 10
414.4544668269
 20
-52.8164588825
 10
413.0457615498
 20
-51.1167468938
 10
411.6975980047
 20
-49.3342682894
 10
410.4173393933
 20
-47.4787583494
 10
409.2119780443
 20
-45.5603512258
 10
408.0880972234
 20
-43.5895245928
 10
407.0518351779
 20
-41.5770424223
 10
406.1088516117
 20
-39.5338961939
 10
405.2642967741
 20
-37.4712448638
 10
404.5227833307
 20
-35.4003539183
 10
403.8883611708
 20
-33.3325338456
 10
403.3644952883
 20
-31.2790783619
 10
402.9540468569
 20
-29.2512027291
 10
402.6592576036
 20
-27.2599825005
 10
402.4817375652
 20
-25.3162930306
 10
402.4224562944
 20
-23.4307500772
  0
LWPOLYLINE
  5
E6
330
1F
100
AcDbEntity
  8
0
  6
Continuous
 62
     7
370
    25
100
AcDbPolyline
 90
       95
 70
   128
 43
0.0
 10
308.5186757529
 20
-174.9728158394
 10
310.348997485
 20
-173.9845612845
 10
312.2895737011
 20
-173.0690882047
 10
314.3317373167
 20
-172.2304853248
 10
316.4663675334
 20
-171.472498049
 10
318.6839305745
 20
-170.7985117324
 10
320.974522265
 20
-170.2115365615
 10
323.3279122664
 20
-169.71419411
 10
325.7335897678
 20
-169.3087056299
 10
328.1808104293
 20
-168.9968821312
 10
330.6586443694
 20
-168.7801162934
 10
333.1560249803
 20
-168.6593762453
 10
335.661798354
 20
-168.6352012413
 10
338.1647730981
 20
-168.7076992529
 10
340.65377032
 20
-168.8765464862
 10
343.1176735537
 20
-169.1409888287
 10
345.5454784094
 20
-169.4998452165
 10
347.9263417213
 20
-169.9515129099
 10
350.2496299757
 20
-170.4939746514
 10
352.5049668033
 20
-171.1248076752
 10
354.6822793225
 20
-171.8411945278
 10
356.7718431269
 20
-172.6399356517
 10
358.7643257173
 20
-173.517463675
 10
360.6508281828
 20
-174.4698593447
 10
362.4229249454
 20
-175.4928690304
 10
364.0727013909
 20
-176.5819237225
 10
365.5927892171
 20
-177.7321594385
 10
366.9763993427
 20
-178.9384389464
 10
368.2173522291
 20
-180.1953747091
 10
369.3101054795
 20
-181.4973529463
 10
370.2497785925
 20
-182.8385587072
 10
371.03217476
 20
-184.2130018413
 10
371.6537996106
 20
-185.6145437518
 10
372.111876817
 20
-187.0369248125
 10
372.4043604951
 20
-188.473792324
 10
372.5299443418
 20
-189.9187288875
 10
372.4880674692
 20
-191.3652810654
 10
372.2789169095
 20
-192.8069882044
 10
371.90342678
 20
-194.2374112907
 10
371.3632741106
 20
-195.6501617073
 10
370.6608713544
 20
-197.0389297681
 10
369.7993556125
 20
-198.3975128977
 10
368.7825746235
 20
-199.719843334
 10
367.6150695779
 20
-201.0000152284
 10
366.3020548368
 20
-202.2323110223
 10
364.8493946428
 20
-203.4112269837
 10
363.2635769288
 20
-204.5314977876
 10
361.5516843419
 20
-205.5881200327
 10
359.7213626097
 20
-206.5763745876
 10
357.7807863936
 20
-207.4918476675
 10
355.738622778
 20
-208.3304505473
 10
353.6039925613
 20
-209.0884378232
 10
351.3864295203
 20
-209.7624241398
 10
349.0958378297
 20
-210.3493993106
 10
346.7424478283
 20
-210.8467417622
 10
344.336770327
 20
-211.2522302423
 10
341.8895496654
 20
-211.564053741
 10
339.4117157253
 20
-211.7808195788
 10
336.9143351144
 20
-211.9015596268
 10
334.4085617408
 20
-211.9257346308
 10
331.9055869966
 20
-211.8532366193
 10
329.4165897748
 20
-211.6843893859
 10
326.952686541
 20
-211.4199470435
 10
324.5248816853
 20
-211.0610906557
 10
322.1440183735
 20
-210.6094229622
 10
319.8207301191
 20
-210.0669612207
 10
317.5653932914
 20
-209.4361281969
 10
315.3880807722
 20
-208.7197413443
 10
313.2985169679
 20
-207.9210002205
 10
311.3060343775
 20
-207.0434721971
 10
309.4195319119
 20
-206.0910765275
 10
307.6474351493
 20
-205.0680668418
 10
305.9976587038
 20
-203.9790121496
 10
304.4775708777
 20
-202.8287764336
 10
303.093960752
 20
-201.6224969257
 10
301.8530078656
 20
-200.365561163
 10
300.7602546152
 20
-199.0635829258
 10
299.8205815022
 20
-197.7223771649
 10
299.0381853347
 20
-196.3479340309
 10
298.4165604841
 20
-194.9463921203
 10
297.9584832777
 20
-193.5240110597
 10
297.6659995996
 20
-192.0871435481
 10
297.5404157529
 20
-190.6422069846
 10
297.5822926255
 20
-189.1956548068
 10
297.7914431852
 20
-187.7539476677
 10
298.1669333147
 20
-186.3235245815
 10
298.7070859841
 20
-184.9107741648
 10
299.4094887403
 20
-183.522006104
 10
300.2710044822
 20
-182.1634229745
 10
301.2877854713
 20
-180.8410925381
 10
302.4552905168
 20
-179.5609206438
 10
303.7683052579
 20
-178.3286248498
 10
305.220965452
 20
-177.1497088884
 10
306.8067831659
 20
-176.0294380845
 10
308.5186757529
 20
-174.9728158394
  0
LWPOLYLINE
  5
E7
330
1F
100
AcDbEntity
  8
0
  6
Continuous
 62
     7
370
    25
100
AcDbPolyline
 90
       86
 70
   128
 43
0.0
 10
313.3270018649
 20
-177.7486034196
 10
311.78307931
 20
-178.7083356373
 10
310.3661516662
 20
-179.7312708286
 10
309.0839577008
 20
-180.8118220765
 10
307.9435003127
 20
-181.9440877845
 10
306.9510082848
 20
-183.1218839102
 10
306.1119022642
 20
-184.3387777393
 10
305.4307651571
 20
-185.58812302
 10
304.9113170981
 20
-186.8630962614
 10
304.5563951325
 20
-188.1567340018
 10
304.3679377209
 20
-189.4619708405
 10
304.3469741524
 20
-190.7716780265
 10
304.4936189227
 20
-192.0787023934
 10
304.8070711089
 20
-193.3759054272
 10
305.2856187438
 20
-194.6562022549
 10
305.9266481663
 20
-195.9126003391
 10
306.7266582959
 20
-197.1382376691
 10
307.6812797548
 20
-198.326420239
 10
308.7852987315
 20
-199.4706586075
 10
310.0326854572
 20
-200.5647033414
 10
311.4166271382
 20
-201.6025791479
 10
312.9295651649
 20
-202.5786175091
 10
314.5632363946
 20
-203.4874876419
 10
316.3087182814
 20
-204.324225613
 10
318.1564776085
 20
-205.0842614496
 10
320.0964225554
 20
-205.7634440995
 10
322.1179578153
 20
-206.3580641028
 10
324.2100424637
 20
-206.864873851
 10
326.3612502597
 20
-207.2811053251
 10
328.5598320524
 20
-207.6044852131
 10
330.7937799503
 20
-207.8332473262
 10
333.0508929048
 20
-207.9661422451
 10
335.3188433476
 20
-208.0024441438
 10
337.5852445198
 20
-207.941954754
 10
339.8377181241
 20
-207.7850044476
 10
342.0639619308
 20
-207.5324504329
 10
344.2518169683
 20
-207.1856720723
 10
346.389333931
 20
-206.746563349
 10
348.4648384424
 20
-206.2175225224
 10
350.4669948168
 20
-205.6014390303
 10
352.3848679701
 20
-204.9016777069
 10
354.2079831445
 20
-204.122060406
 10
355.9263831168
 20
-203.2668451268
 10
357.5306825825
 20
-202.3407027588
 10
359.0121194142
 20
-201.3486915703
 10
360.3626025175
 20
-200.2962295824
 10
361.5747560222
 20
-199.1890649776
 10
362.641959566
 20
-198.0332447051
 10
363.5583844534
 20
-196.8350814542
 10
364.3190254893
 20
-195.6011191773
 10
364.9197283162
 20
-194.3380973483
 10
365.3572121036
 20
-193.0529141546
 10
365.6290874668
 20
-191.752588821
 10
365.7338695167
 20
-190.4442232737
 10
365.6709859701
 20
-189.1349633514
 10
365.4407802752
 20
-187.831959778
 10
365.0445097357
 20
-186.5423291071
 10
364.4843386438
 20
-185.2731148542
 10
363.7633264598
 20
-184.0312490274
 10
362.8854111022
 20
-182.8235142672
 10
361.8553874402
 20
-181.6565068021
 10
360.6788811059
 20
-180.5366004222
 10
359.362317769
 20
-179.4699116677
 10
357.9128880418
 20
-178.4622664228
 10
356.3385082068
 20
-177.5191680964
 10
354.6477769809
 20
-176.6457675644
 10
352.8499285516
 20
-175.8468350377
 10
350.9547821436
 20
-175.1267340087
 10
348.9726883894
 20
-174.4893974196
 10
346.9144727977
 20
-173.9383061817
 10
344.7913766285
 20
-173.4764701643
 10
342.6149954968
 20
-173.1064117556
 10
340.3972160415
 20
-172.8301520863
 10
338.150151005
 20
-172.6491999909
 10
335.8860730773
 20
-172.564543767
 10
333.6173478669
 20
-172.5766457775
 10
331.3563663643
 20
-172.6854399254
 10
329.1154772663
 20
-172.8903320149
 10
326.9069195321
 20
-173.1902029964
 10
324.7427555382
 20
-173.5834150786
 10
322.6348051978
 20
-174.0678206734
 10
320.5945814048
 20
-174.6407741255
 10
318.6332271539
 20
-175.2991461618
 10
316.761454682
 20
-176.0393409825
 10
314.9894869613
 20
-176.8573159002
 10
313.3270018649
 20
-177.7486034196
  0
LWPOLYLINE
  5
E8
330
1F
100
AcDbEntity
  8
0
  6
Continuous
 62
     1
370
    25
100
AcDbPolyline
 90
       13
 70
   128
 43
0.0
 10
361.5516843419
 20
-102.7089539875
 10
363.3227915014
 20
-103.6630135847
 10
365.0859884664
 20
-104.4760545144
 10
366.8334003713
 20
-105.1444455386
 10
368.5572228502
 20
-105.6652014606
 10
370.2497568935
 20
-106.0359964581
 10
371.9034432333
 20
-106.2551744706
 10
373.5108961049
 20
-106.3217565959
 10
375.0649362337
 20
-106.2354454621
 10
376.5586228991
 20
-105.9966265557
 10
377.985284934
 20
-105.6063664998
 10
379.3385505193
 20
-105.0664082906
 10
380.3001605788
 20
-104.5655058811
  0
LWPOLYLINE
  5
E9
330
1F
100
AcDbEntity
  8
0
  6
Continuous
 62
     1
370
    25
100
AcDbPolyline
 90
       37
 70
   128
 43
0.0
 10
342.8032081049
 20
-39.6118412025
 10
342.4909930413
 20
-39.798183571
 10
341.3022975926
 20
-40.6296455159
 10
340.2040408207
 20
-41.6016111167
 10
339.201127807
 20
-42.7097393392
 10
338.2980378045
 20
-43.9490810137
 10
337.4988042323
 20
-45.3141009394
 10
336.8069966616
 20
-46.7987026059
 10
336.225704873
 20
-48.3962554219
 10
335.7575250566
 20
-50.0996243287
 10
335.4045482173
 20
-51.9012016671
 10
335.1683508351
 20
-53.7929411556
 10
335.0499878251
 20
-55.7663938262
 10
335.0499878251
 20
-57.8127457603
 10
335.1683508351
 20
-59.9228574534
 10
335.4045482173
 20
-62.0873046345
 10
335.7575250566
 20
-64.296420357
 10
336.225704873
 20
-66.5403381738
 10
336.8069966616
 20
-68.8090362033
 10
337.4988042323
 20
-71.0923818892
 10
338.2980378045
 20
-73.3801772555
 10
339.201127807
 20
-75.6622044527
 10
340.2040408207
 20
-77.9282713934
 10
341.3022975926
 20
-80.1682572725
 10
342.4909930413
 20
-82.3721577693
 10
343.7648181644
 20
-84.5301297292
 10
345.1180837497
 20
-86.6325351255
 10
346.5447457846
 20
-88.6699841054
 10
348.03843245
 20
-90.6333769272
 10
349.5924725788
 20
-92.5139446019
 10
351.1999254505
 20
-94.3032880577
 10
352.8536117903
 20
-95.9934156524
 10
354.5461458336
 20
-97.5767788658
 10
356.2699683124
 20
-99.0463060136
 10
358.0173802173
 20
-100.3954338306
 10
359.7805771823
 20
-101.6181367847
 10
361.5516843419
 20
-102.7089539875
  0
LWPOLYLINE
  5
EA
330
1F
100
AcDbEntity
  8
0
  6
Continuous
 62
     1
370
    25
100
AcDbPolyline
 90
       13
 70
   128
 43
0.0
 10
361.5516843419
 20
-102.7089539875
 10
363.2635769288
 20
-103.7655762326
 10
364.8493946428
 20
-104.8858470365
 10
366.3020548368
 20
-106.0647629979
 10
367.6150695779
 20
-107.2970587919
 10
368.7825746235
 20
-108.5772306862
 10
369.7993556125
 20
-109.8995611226
 10
370.6608713544
 20
-111.2581442521
 10
371.3632741106
 20
-112.6469123129
 10
371.90342678
 20
-114.0596627296
 10
372.2789169095
 20
-115.4900858158
 10
372.4880674692
 20
-116.9317929549
 10
372.5351800474
 20
-118.0166060842
  0
LWPOLYLINE
  5
EB
330
1F
100
AcDbEntity
  8
0
  6
Continuous
 62
     1
370
    25
100
AcDbPolyline
 90
       37
 70
   128
 43
0.0
 10
297.5351800474
 20
-118.0166060842
 10
297.5404157529
 20
-117.6548670356
 10
297.6659995996
 20
-116.2099304722
 10
297.9584832777
 20
-114.7730629606
 10
298.4165604841
 20
-113.3506818999
 10
299.0381853347
 20
-111.9491399894
 10
299.8205815022
 20
-110.5746968553
 10
300.7602546152
 20
-109.2334910944
 10
301.8530078656
 20
-107.9315128572
 10
303.093960752
 20
-106.6745770945
 10
304.4775708777
 20
-105.4682975866
 10
305.9976587038
 20
-104.3180618707
 10
307.6474351493
 20
-103.2290071785
 10
309.4195319119
 20
-102.2059974928
 10
311.3060343775
 20
-101.2536018231
 10
313.2985169679
 20
-100.3760737998
 10
315.3880807722
 20
-99.5773326759
 10
317.5653932914
 20
-98.8609458233
 10
319.8207301191
 20
-98.2301127996
 10
322.1440183735
 20
-97.687651058
 10
324.5248816853
 20
-97.2359833646
 10
326.952686541
 20
-96.8771269768
 10
329.4165897748
 20
-96.6126846343
 10
331.9055869966
 20
-96.443837401
 10
334.4085617408
 20
-96.3713393894
 10
336.9143351144
 20
-96.3955143934
 10
339.4117157253
 20
-96.5162544415
 10
341.8895496655
 20
-96.7330202793
 10
344.336770327
 20
-97.044843778
 10
346.7424478283
 20
-97.4503322581
 10
349.0958378297
 20
-97.9476747096
 10
351.3864295203
 20
-98.5346498805
 10
353.6039925613
 20
-99.2086361971
 10
355.738622778
 20
-99.9666234729
 10
357.7807863936
 20
-100.8052263528
 10
359.7213626097
 20
-101.7206994326
 10
361.5516843419
 20
-102.7089539875
  0
ENDSEC
  0
SECTION
  2
OBJECTS
  0
DICTIONARY
  5
C
330
0
100
AcDbDictionary
281
     1
  3
ACAD_GROUP
350
D
  3
ACAD_LAYOUT
350
1A
  3
ACAD_MLINESTYLE
350
17
  3
ACAD_PLOTSETTINGS
350
19
  3
ACAD_PLOTSTYLENAME
350
E
  3
ACAD_SCALELIST
350
47
  3
DWGPROPS
350
EC
  0
DICTIONARY
  5
D
102
{ACAD_REACTORS
330
C
102
}
330
C
100
AcDbDictionary
281
     1
  0
DICTIONARY
  5
1A
102
{ACAD_REACTORS
330
C
102
}
330
C
100
AcDbDictionary
281
     1
  3
Layout1
350
1E
  3
Layout2
350
26
  3
Model
350
22
  0
DICTIONARY
  5
17
102
{ACAD_REACTORS
330
C
102
}
330
C
100
AcDbDictionary
281
     1
  3
Standard
350
18
  0
DICTIONARY
  5
19
102
{ACAD_REACTORS
330
C
102
}
330
C
100
AcDbDictionary
281
     1
  0
ACDBDICTIONARYWDFLT
  5
E
102
{ACAD_REACTORS
330
C
102
}
330
C
100
AcDbDictionary
281
     1
  3
Normal
350
F
100
AcDbDictionaryWithDefault
340
F
  0
DICTIONARY
  5
47
102
{ACAD_REACTORS
330
C
102
}
330
C
100
AcDbDictionary
281
     1
  3
A0
350
48
  3
A1
350
49
  3
A2
350
4A
  3
A3
350
4B
  3
A4
350
4C
  3
A5
350
4D
  3
A6
350
4E
  3
A7
350
4F
  3
A8
350
50
  3
A9
350
51
  3
B0
350
52
  3
B1
350
53
  3
B2
350
54
  3
B3
350
55
  3
B4
350
56
  3
B5
350
57
  3
B6
350
58
  3
B7
350
59
  3
B8
350
5A
  3
B9
350
5B
  3
C0
350
5C
  3
C1
350
5D
  3
C2
350
5E
  3
C3
350
5F
  3
C4
350
60
  3
C5
350
61
  3
C6
350
62
  3
C7
350
63
  3
C8
350
64
  3
C9
350
65
  3
D0
350
66
  3
D1
350
67
  3
D2
350
68
  0
XRECORD
  5
EC
102
{ACAD_REACTORS
330
C
102
}
330
C
100
AcDbXrecord
280
     1
  1
DWGPROPS COOKIE
  2

  3

  4

  6

  7

  8
b.kav
  9

300
=
301
=
302
=
303
=
304
=
305
=
306
=
307
=
308
=
309
=
 40
0.0
 41
2459935.574328484
 42
2459935.574328657
  1

 90
        0
  0
LAYOUT
  5
1E
102
{ACAD_REACTORS
330
1A
102
}
330
1A
100
AcDbPlotSettings
  1

  2
none_device
  4

  6

 40
0.0
 41
0.0
 42
0.0
 43
0.0
 44
0.0
 45
0.0
 46
0.0
 47
0.0
 48
0.0
 49
0.0
140
0.0
141
0.0
142
1.0
143
1.0
 70
   688
 72
     1
 73
     0
 74
     5
  7

 75
    16
147
1.0
148
0.0
149
0.0
100
AcDbLayout
  1
Layout1
 70
     1
 71
     1
 10
0.0
 20
0.0
 11
420.0
 21
297.0
 12
0.0
 22
0.0
 32
0.0
 14
1.0000000000E+20
 24
1.0000000000E+20
 34
1.0000000000E+20
 15
-1.0000000000E+20
 25
-1.0000000000E+20
 35
-1.0000000000E+20
146
0.0
 13
0.0
 23
0.0
 33
0.0
 16
1.0
 26
0.0
 36
0.0
 17
0.0
 27
1.0
 37
0.0
 76
     0
330
1B
  0
LAYOUT
  5
26
102
{ACAD_REACTORS
330
1A
102
}
330
1A
100
AcDbPlotSettings
  1

  2
none_device
  4

  6

 40
0.0
 41
0.0
 42
0.0
 43
0.0
 44
0.0
 45
0.0
 46
0.0
 47
0.0
 48
0.0
 49
0.0
140
0.0
141
0.0
142
1.0
143
1.0
 70
   688
 72
     1
 73
     0
 74
     5
  7

 75
    16
147
1.0
148
0.0
149
0.0
100
AcDbLayout
  1
Layout2
 70
     1
 71
     2
 10
0.0
 20
0.0
 11
0.0
 21
0.0
 12
0.0
 22
0.0
 32
0.0
 14
0.0
 24
0.0
 34
0.0
 15
0.0
 25
0.0
 35
0.0
146
0.0
 13
0.0
 23
0.0
 33
0.0
 16
1.0
 26
0.0
 36
0.0
 17
0.0
 27
1.0
 37
0.0
 76
     0
330
23
  0
LAYOUT
  5
22
102
{ACAD_REACTORS
330
1A
102
}
330
1A
100
AcDbPlotSettings
  1

  2
none_device
  4
Letter_(8.50_x_11.00_Inches)
  6

 40
6.35
 41
6.35
 42
6.35000508
 43
6.35000508
 44
215.9
 45
279.4
 46
0.0
 47
0.0
 48
0.0
 49
0.0
140
0.0
141
0.0
142
1.0
143
1.0
 70
  1712
 72
     1
 73
     0
 74
     0
  7

 75
     0
147
1.0
148
0.0
149
0.0
100
AcDbLayout
  1
Model
 70
     1
 71
     0
 10
0.0
 20
0.0
 11
279.4
 21
215.9
 12
0.0
 22
0.0
 32
0.0
 14
0.0
 24
0.0
 34
0.0
 15
279.4
 25
215.9
 35
0.0
146
0.0
 13
0.0
 23
0.0
 33
0.0
 16
1.0
 26
0.0
 36
0.0
 17
0.0
 27
1.0
 37
0.0
 76
     0
330
1F
331
29
  0
MLINESTYLE
  5
18
102
{ACAD_REACTORS
330
17
102
}
330
17
100
AcDbMlineStyle
  2
Standard
 70
     0
  3

 62
   256
 51
90.0
 52
90.0
 71
     2
 49
0.5
 62
   256
  6
BYLAYER
 49
-0.5
 62
   256
  6
BYLAYER
  0
ACDBPLACEHOLDER
  5
F
102
{ACAD_REACTORS
330
E
102
}
330
E
  0
SCALE
  5
48
102
{ACAD_REACTORS
330
47
102
}
330
47
100
AcDbScale
 70
     0
300
1:1
140
1.0
141
1.0
290
     1
  0
SCALE
  5
49
102
{ACAD_REACTORS
330
47
102
}
330
47
100
AcDbScale
 70
     0
300
1:2
140
1.0
141
2.0
290
     0
  0
SCALE
  5
4A
102
{ACAD_REACTORS
330
47
102
}
330
47
100
AcDbScale
 70
     0
300
1:4
140
1.0
141
4.0
290
     0
  0
SCALE
  5
4B
102
{ACAD_REACTORS
330
47
102
}
330
47
100
AcDbScale
 70
     0
300
1:5
140
1.0
141
5.0
290
     0
  0
SCALE
  5
4C
102
{ACAD_REACTORS
330
47
102
}
330
47
100
AcDbScale
 70
     0
300
1:8
140
1.0
141
8.0
290
     0
  0
SCALE
  5
4D
102
{ACAD_REACTORS
330
47
102
}
330
47
100
AcDbScale
 70
     0
300
1:10
140
1.0
141
10.0
290
     0
  0
SCALE
  5
4E
102
{ACAD_REACTORS
330
47
102
}
330
47
100
AcDbScale
 70
     0
300
1:16
140
1.0
141
16.0
290
     0
  0
SCALE
  5
4F
102
{ACAD_REACTORS
330
47
102
}
330
47
100
AcDbScale
 70
     0
300
1:20
140
1.0
141
20.0
290
     0
  0
SCALE
  5
50
102
{ACAD_REACTORS
330
47
102
}
330
47
100
AcDbScale
 70
     0
300
1:30
140
1.0
141
30.0
290
     0
  0
SCALE
  5
51
102
{ACAD_REACTORS
330
47
102
}
330
47
100
AcDbScale
 70
     0
300
1:40
140
1.0
141
40.0
290
     0
  0
SCALE
  5
52
102
{ACAD_REACTORS
330
47
102
}
330
47
100
AcDbScale
 70
     0
300
1:50
140
1.0
141
50.0
290
     0
  0
SCALE
  5
53
102
{ACAD_REACTORS
330
47
102
}
330
47
100
AcDbScale
 70
     0
300
1:100
140
1.0
141
100.0
290
     0
  0
SCALE
  5
54
102
{ACAD_REACTORS
330
47
102
}
330
47
100
AcDbScale
 70
     0
300
2:1
140
2.0
141
1.0
290
     0
  0
SCALE
  5
55
102
{ACAD_REACTORS
330
47
102
}
330
47
100
AcDbScale
 70
     0
300
4:1
140
4.0
141
1.0
290
     0
  0
SCALE
  5
56
102
{ACAD_REACTORS
330
47
102
}
330
47
100
AcDbScale
 70
     0
300
8:1
140
8.0
141
1.0
290
     0
  0
SCALE
  5
57
102
{ACAD_REACTORS
330
47
102
}
330
47
100
AcDbScale
 70
     0
300
10:1
140
10.0
141
1.0
290
     0
  0
SCALE
  5
58
102
{ACAD_REACTORS
330
47
102
}
330
47
100
AcDbScale
 70
     0
300
100:1
140
100.0
141
1.0
290
     0
  0
SCALE
  5
59
102
{ACAD_REACTORS
330
47
102
}
330
47
100
AcDbScale
 70
     0
300
1/128" = 1'-0"
140
0.0078125
141
12.0
290
     0
  0
SCALE
  5
5A
102
{ACAD_REACTORS
330
47
102
}
330
47
100
AcDbScale
 70
     0
300
1/64" = 1'-0"
140
0.015625
141
12.0
290
     0
  0
SCALE
  5
5B
102
{ACAD_REACTORS
330
47
102
}
330
47
100
AcDbScale
 70
     0
300
1/32" = 1'-0"
140
0.03125
141
12.0
290
     0
  0
SCALE
  5
5C
102
{ACAD_REACTORS
330
47
102
}
330
47
100
AcDbScale
 70
     0
300
1/16" = 1'-0"
140
0.0625
141
12.0
290
     0
  0
SCALE
  5
5D
102
{ACAD_REACTORS
330
47
102
}
330
47
100
AcDbScale
 70
     0
300
3/32" = 1'-0"
140
0.09375
141
12.0
290
     0
  0
SCALE
  5
5E
102
{ACAD_REACTORS
330
47
102
}
330
47
100
AcDbScale
 70
     0
300
1/8" = 1'-0"
140
0.125
141
12.0
290
     0
  0
SCALE
  5
5F
102
{ACAD_REACTORS
330
47
102
}
330
47
100
AcDbScale
 70
     0
300
3/16" = 1'-0"
140
0.1875
141
12.0
290
     0
  0
SCALE
  5
60
102
{ACAD_REACTORS
330
47
102
}
330
47
100
AcDbScale
 70
     0
300
1/4" = 1'-0"
140
0.25
141
12.0
290
     0
  0
SCALE
  5
61
102
{ACAD_REACTORS
330
47
102
}
330
47
100
AcDbScale
 70
     0
300
3/8" = 1'-0"
140
0.375
141
12.0
290
     0
  0
SCALE
  5
62
102
{ACAD_REACTORS
330
47
102
}
330
47
100
AcDbScale
 70
     0
300
1/2" = 1'-0"
140
0.5
141
12.0
290
     0
  0
SCALE
  5
63
102
{ACAD_REACTORS
330
47
102
}
330
47
100
AcDbScale
 70
     0
300
3/4" = 1'-0"
140
0.75
141
12.0
290
     0
  0
SCALE
  5
64
102
{ACAD_REACTORS
330
47
102
}
330
47
100
AcDbScale
 70
     0
300
1" = 1'-0"
140
1.0
141
12.0
290
     0
  0
SCALE
  5
65
102
{ACAD_REACTORS
330
47
102
}
330
47
100
AcDbScale
 70
     0
300
1-1/2" = 1'-0"
140
1.5
141
12.0
290
     0
  0
SCALE
  5
66
102
{ACAD_REACTORS
330
47
102
}
330
47
100
AcDbScale
 70
     0
300
3" = 1'-0"
140
3.0
141
12.0
290
     0
  0
SCALE
  5
67
102
{ACAD_REACTORS
330
47
102
}
330
47
100
AcDbScale
 70
     0
300
6" = 1'-0"
140
6.0
141
12.0
290
     0
  0
SCALE
  5
68
102
{ACAD_REACTORS
330
47
102
}
330
47
100
AcDbScale
 70
     0
300
1'-0" = 1'-0"
140
12.0
141
12.0
290
     0
  0
ENDSEC
  0
EOF
